Odpowiedzi

  • Użytkownik Zadane
2009-12-09T11:52:55+01:00
E ZWR: E H cis A E H cis A E H cis A cis H A H Na płacz... CHORUS: Fis Cis dis H Fis Cis dis H Fis Cis dis Cis H Cis Fis Cis dis H E Nudno trochę nam... BRIDGE: D E > Razem sam na sam H Cis > sam na sam D E Fis A > sam na s-a-a-a-a-a-m > Mogę być A4 > całkiem sama
2009-12-09T12:25:39+01:00
INTRO:

x x x ~
e|---------------------------------------------------------------------|
B|---------------------------------------------------------------------|
G|---------------------------------------------------------------------|
D|---------9--9-9--9-9---9-9-----9--9-9--9-9---------------------------|
A|---------7--6/7--6/7---6/7\6---7--6/7--6/7---------------------------|
E|--0-0-0--------------------------------------------------------------|


VERSE 1:

Mogę być... Dasz sam...

e|--------------------------------| ----------------------------|
B|--------------------------------| ----------------------------|
G|--------------------------------| x3 ----------------------------| all x2
D|--2---4--4/6--6----------2------| --------6--x-x--4--2--------|
A|--2---2--2/4--4---7--7\--2------| --------4--x-x--2--0--------|
E|--0---------------5--5\--0------| ----------------------------|

Na płacz...
> > > >
e|---------------------------------------------------------------------|
B|---------------------------------------------------------------------|
G|---------------------------------------------------------------------|
D|--4--x-x-4---4--x-x-4----4--4--4--4----------------------------------|
A|--2--x-x-2---2--x-x-2----2--2--2--2----------------------------------|
E|---------------------------------------------------------------------|



CHORUS:

W tym...

(bicie wg uznania, może byc po prostu x4)
e|------------------------------------------------------------------------|
B|------------------------------------------------------------------------|
G|------------------------------------------------------------------------|
D|--11--11--8-------11--11--8-------11--11--8--6---4/-6----11--11--8------|
A|--9---8---6---9---9---8---6---9---9---8---6--4---2/-4----9---8---6---9--|
E|--------------7---------------7--------------------------------------7--|


VERSE 2:

Nudno trochę...

e|------------------------------------------------------------------------|
B|------------------------------------------------------------------------|
G|------------------------------------------------------------------------|
D|--9--9-9--9-9---9-9-----9--9-9--9-9-------------------------------------|
A|--7--6/7--6/7---6/7\6---7--6/7--6/7-------------------------------------|
E|------------------------------------------------------------------------|


(dalej tak jak w VERSE 1)

Mogę być...


CHORUS:

W tym... / x2


BRIDGE:

Razem sam...

e|------------------------------------------------------------------------|
B|------------------------------------------------------------------------|
G|------------------------------------------------------------------------|
D|--7--9--4--6--7--9--11--2-----------------------------------------------|
A|--5--7--2--4--5--7--9---0-----------------------------------------------|
E|------------------------------------------------------------------------|

e|------------------------------------------------------------------------|
B|------------------------------------------------------------------------|
G|------4-------4-------4-------4---------4-------4-------4-------4-------|
D|----2-------2-------2-------2---------2-------2-------2-------2---------|
A|----------2-----2-4-----4-0-----0-----------2-----2-4-----4-0-----0-----|
E|--0-----0---------------------------0-----0-------------------------0---|

Szok!
^ x4 x4 x4 x4
e|------------------------------------------------------------------------|
B|----------------------------0-------------------------------------------|
G|------4-------4-------4-----2-------------------------------------------|
D|----2-------2-------2-------2--------11--11--8--------------------------|
A|----------2-----2-4-----4---0--------9---8---6---9----------------------|
E|--0-----0----------------------------------------7----------------------|


CHORUS:

W tym... /x2


OUTRO = INTRO



| / slide up
| \ slide down
| ^ arpeggio
| ~ vibrato
| > accent
| x mute note


Pozdrawiam.