Odpowiedzi

Najlepsza Odpowiedź!
2009-12-19T21:44:10+01:00
INTRO RIFF - Acoustic guitar. Played through entire song.

Em7 G D Cadd9
---------3------2---0----0----0-----0-----0---------0-----0---0--------
--3---3--3---3--3---3----3----3--3--3-----3---3--3--3-----3---3--3--3--
--0---0--0---0--2---0----0----0--0--0-----0---0--0--0-----0---0--0--0--
--2---2--0---0--0---2----2----2--2--0h2---2---2--2--0h2---2---2--2--2--
--2------2----------3----3----------3-----3---------3-----3------------
--0------3-------------------------------------------------------------

. Em7
--0--0--0--0----3--3---------
--3--3--3--3----3--3---3--3--
--0--0--0--0-------0---0--0--
--2--2--2--2-------2---2--2--
-------------------2---2--2--
-------------------0---------

Variation (instead of 4th time riff above)

Em7 G D Cadd9 Cmaj7 Cadd9 Cmaj7
---------3------2---0----0----0-----0---------0-----0---------0--------
--3---3--3---3--3---3----3----3--3--3--x--0---0-----3--x--0---0--------
--0---0--0---0--2---0----0----0--0--0--x--0---0-----0--x--0---0--------
--2---2--0---0--0---2----2----2--2--2--x------2-----2--x------2--------
--2------2----------3----3----------3---------3-----3---------3--------
--0------3-------------------------------------------------------------

. Em7
--0--0--0--0----3--3---------
--3--3--3--3----3--3---3--3--
--0--0--0--0-------0---0--0--
--2--2--2--2-------2---2--2--
-------------------2---2--2--
-------------------0---------

VERSE 1

We chase misprinted lies
We face the path of time
And yet I fight
And yet I fight
This battle all alone
No one to cry to
No place to call home

CHORUS - Electrical guitar, play twice

Oooh (4x)

--12-------------------------------------------
-----12----------------------------------------
--------12--11b12r11--9------------------------
-------------------------9(gradual bend)10^^^--
-----------------------------------------------
-----------------------------------------------

--10-------------------------------------------
-----8-----------------------------------------
--------7---7b8r7------------------------------
---------------------10--9^^^------------------
-----------------------------------------------
-----------------------------------------------

VERSE 2

My gift of self is raped
My privacy is raked
And yet I find
And yet I find
Repeating in my head
If I can't be my own
I'd feel better dead

OUTRO SOLO

-----------------------------------------------------------------------
-----------------------------------12----------------------------------
----------------------------9--11--12----------------------------------
-----9b10r9------------------------12----------------------------------
-------------10--9b10r9---------------------------------.--------------
-------------------------10-------------0--0--10h12--0--15--0--12^^^^--

-----------------------------------------------------------------------
-----------------------------------12-----12-----12-(<- whammy vib)----
----------------------------9--11--12-----12-----11--------------------
-----9b10r9------------------------12--/9-10--9--10--------------------
-------------10--9b10r9---------------------------------.--------------
-0-0---------------------10--------------------------0--15--0--10h12^^-

------.-----.-----.----.----------0-0-0-0-0-0-0-0-0-0-0-0-0-0-0-0------
------12----10----8----7-------5--5-5-5-5-5-5-5-5-5-5-5-5-5-5-5-5/-----
-----------------------------5----5-5-5-5-5-5-5-5-5--------------------
--/10----/9----/9---/7----/5-------------------------------------------
-----------------------------------------------------------------------
------------------------------------




najlepsza?? plz
2 2 2
2009-12-20T00:51:20+01:00
Http://www.chords.pl/chwyty/aliceinchains/5834,nutshell/
nic lepszego ci nie znajdę, piosenka bardzo prosta do zagrania