Odpowiedzi

2010-01-23T13:01:53+01:00
Cześć!

Ja gram już dość długo na gitarze ale elektrycznej nie basowej ;(

Ale prosze masz tutaj fajne cuśko:

Whiskey in the jar


G]------------10-----9--------9-(let ring)
D]-10-10-10h12----10---10-12--- x3
A]-----------------------------
E]-----------------------------

G]--------------------------------
D]--------------12----9----10-----
A]1410-10-10h12---10---10----10-
E]--------------------------------
Najlepsza Odpowiedź!
2010-01-23T15:57:29+01:00
Wysłałam ci akordy do takiej gitary na załączniku
  • Użytkownik Zadane
2010-01-23T16:27:40+01:00
Http://www.adam2-1.com/wwwpl/adamsg.php4

Wszystko znajdziesz ;D