Odpowiedzi

Najlepsza Odpowiedź!
2010-02-01T10:54:41+01:00
D fis h
Dzień ktry zaczął się marnie
e A D
I marnie skończy się
fis h
Może strułem się jabłkiem
e A
Nie wyspałem
D fis h
Może siedzi we mnie wczorajsze
e A D
A jeśli nie
fis h
Może ktoś zapewni
e A D
Jest dobrze jest dobrze jest

D
A może sama powiesz mi
A D
Jak mam powiedzieć to tobie
A
Że już nie kocham cię nie chce
D A
Że kiedy patrzę na to jak jest
D fis h
Już nie przechodzą mnie dreszcze
fis h
Już nie brakuje mi powietrza
G h e A
Już nie wołam jeszcze, jeszcze, jeszcze


Reszta chyba jest w porządku
Jak kiedyś
Kiedy pisaliśmy krwią
Że od końcw naszych stp
Po końce naszych dłoni
Do końca świata aż po grb
Że jakby coś - to nic

I może sama powiesz mi...
2010-02-01T13:44:19+01:00
Myslovitz
Mieć czy Być
Zwrotka: e | C G | e | e
e | C G | D | D
e | C G | e | e
e | C G | D | D

Refren: a | C | G | D
a | C | G | D
a | C | G | D
a | C | e

Tina Muniek
Tina

Wejście F F sus


Zwrotka

F F sus

Ref.

C B
F G C

Pidżama Porno
Wódka

Wstęp I (panowie, czas na toast i czas rozstawić stół):
e|-----------------------------------------|
B|-----------------------------------------|
G|-----------------------------------------|
D|-----------------------------------------|
A|-0-3--5-5----2-----0-3-0-----------------|
E|---------------3----------3~0-3----------|

e|---------------------------------------|
B|---------------------------------------|
G|---------------------------------------|
D|---------------------------------------|
A|-0-3--5-5----2----0-0-3-0-----------0~~|
E|---------------3-----------3~0-3-------|

Wstęp II:
e|-----------------------------------------|
B|-----------------------------------------|
G|-----------------------------------------|
D|-----------------------------------------|
A|-0-3--5-5-5-5---2-----0-3-0--------------|
E|------------------3----------3~0-3-------|

e|------------------------------------------|
B|------------------------------------------|
G|------------------------------------------|
D|------------------------------------------|
A|-0-3--5-5-5-5---2----0-0-3-0--------------|
E|------------------3-----------3~0-3-------|

Zwrotki i refren :
a e


i Muchy
Pięć i wpół

Intro


E||--------------------------|--------------------------|--------------------------|
B||--6-----6-----6-----6-----|--7-----7-----7-----7-----|--9-----9-----9-----9-----|
G||-----6-----6-----6-----6--|-----6-----6-----6-----6--|-----6-----6-----6-----6--|
D||--------------------------|--------------------------|--------------------------|
A||--------------------------|--------------------------|--------------------------|
E||--------------------------|--------------------------|--------------------------|



Riff A

|--6--6----|----------|--5--5----|----------|--4--4----|----------|--7--7----|----------|
|--7--7----|----------|--5--5----|----------|--5--5----|----------|--7--7----|----------|
|--8--8----|----------|--6--6----|----------|--6--6----|----------|--8--8----|----------|
|--8--8----|----------|--7--7----|----------|--6--6----|----------|--9--9----|----------|
|--6--6----|----------|--7--7----|----------|--4--4----|----------|--9--9----|----------|
|----------|----------|--5--5----|----------|----------|----------|--7--7----|----------|



Riff B

|-6--6-6-6--6-|-6-6-6--9-9-9-9-|-5--5-5-5--5-|-5-5-5--5-5-5-5-|
|-7--7-7-7--7-|-7-7-7--7-7-7-7-|-5--5-5-5--5-|-5-5-5--5-5-5-5-|
|-8--8-8-8--8-|-8-8-8--8-8-8-8-|-6--6-6-6--6-|-6-6-6--6-6-6-6-|
|-8--8-8-8--8-|-8-8-8--8-8-8-8-|-7--7-7-7--7-|-7-7-7--7-7-7-7-|
|-6--6-6-6--6-|-6-6-6--6-6-6-6-|-7--7-7-7--7-|-7-7-7--7-7-7-7-|
|-------------|----------------|-5--5-5-5--5-|-5-5-5--5-5-5-5-|



|-4--4-4-4--4-|-4-4-4--4-7-7-7-|-7--7-7-7--9-|-9--9--9-9-9--|
|-5--5-5-5--5-|-5-5-5--5-5-5-5-|-7--7-7-7--7-|-7--7--7-7-7--|
|-6--6-6-6--6-|-6-6-6--6-6-6-6-|-8--8-8-8--8-|-8--8--8-8-8--|
|-6--6-6-6--6-|-6-6-6--6-6-6-6-|-9--9-9-9--9-|-9--9--9-9-9--|
|-4--4-4-4--4-|-4-4-4--4-4-4-4-|-9--9-9-9--9-|-9--9--9-9-9--|
|-------------|----------------|-7--7-7-7--7-|-7--7--7-7-7--|



Solo
x2
|-------------------------|--------------------------|-------------------|
|-------------------------|--------------------------|-------------------|
|--6--4--3--4----3--------|--------------------------|-------------------|
|----------------------4--|--4--6--4--6S--8---6---4--|--3----------------|
|-------------------------|--------------------------|-------------------|
|-------------------------|--------------------------|-------------------|


x2
|-------------------------|--------------------------|-------------------|
|--6----------------------|--------------------------|-------------------|
|-----6-----6----------3--|--3--4--3--6s--8---6------|-------------------|
|--------8-------8--------|-----------------------7--|--6----------------|
|-------------------------|--------------------------|-------------------|
|-------------------------|--------------------------|-------------------|



Riff C

1st time
|------------|------------|------------|------------|
|------------|------------|------------|------------|
|--10--------|--6---------|--11--------|--10--------|
|---8--------|--4---------|--12--------|---8--------|
|---9--------|--5---------|--10--------|---9--------|
|------------|------------|------------|------------|


x7
|------------|------------|------------|
|------------|------------|------------|
|--6---------|--11--------|--10--------|
|--4---------|--12--------|---8--------|
|--5---------|--10--------|---9--------|
|------------|------------|------------|